Kauja pie Saules [TAB]

Skyforger

Izpildītājs:
Skyforger
Refleksija
Mūzikas autors:
Refleksija
Vārdu autors:
Arturs Gruzdiņš
Birkas:
tab
Nosaukums:
Kauja pie Saules [TAB]
Dalīties:
Seko jaunumiem:
Standard E Tuning

riff A
|-----------------------------------------------------|
|-----------------------------------------------------|
|-----------------------------------------------------|
|------3p2--------2h3p2--------3p2---------2h3~-------|
|----2----------2------------2----------2-------------|
|-0----------0------------0----------0----------------|
                                                (4x)
riff B (0:12) repeat riff A 4x under riff B.
|-----------------------------------------------------|
|-----------------------------------------------------|
|-----------------------------------------------------|
|----2------2-----------3~----------------------------|
|----2------2-----------------------------------------|
|-0--0---0--0---0-0--0--------------------------------|
  .      .      . .  .                                (4x)

riff C (0:37)
|-----------------------------------------------------|
|-----------------------------------------------------|
|-----------------------------------------------------|
|-----------------------------------------------------|
|-2-22-22-22-22-22-22--3-33-33------------------------|
|-0-00-00-00-00-00-00--1-11-11------------------------|
 p.m..........................                        (4x)

riff D (0:50)
|-----------------------------------------------------|
|-----------------------------------------------------|
|-----------------------------------------------------|
|----------------------4~-----------------------------|
|-5-55-55-55-55-55-55--2------------------------------|
|-5-55-55-55-55-55-55---------------------------------|
 p.m.................                                (4x)

repeat riff C 4x

riff E (1:03) (solo 1)
|-----------------------------------------------------|
|-----------------------------------------------------|
|-----------------------------------------------------|
|-2~----------------2~----------------2~--------------|
|-2----3/7~--5-3----2----3/7~--5-3----2----3/7~--5-3--|
|-0-----------------0-----------------0---------------|

|-----------------------------------------------------|
|-----------------------------------------------------|
|-----------------------------------------------------|
|-2~----------------2~--------------------------------|
|-2----3/7~--5-3----2---------------------------------|
|-0-----------------0---------------------------------|

riff F (1:19)
|-----------------------------------------------------|
|-----------------------------------------------------|
|-----------------------------------------------------|
|----------------------2h3-2---2----------------------|
|-2222-2222-2222-2222--------5---5-3-5----------------|
|-0000-0000-0000-0000---------------------------------|
                                                (2x)
riff G
|-----------------------------------------------------|
|-----------------------------------------------------|
|-----------------------------------------------------|
|-----------------------------------------------------|
|-3333-3333-3333-3333-/-8888-8888---------------------|
|-1111-1111-1111-1111-/-6666-6666---------------------|
                                                (1x)
repeat riff F 2x (1:28)
repeat riff G 1x (1:38)

riff H (1:41)
|-----------------------------------------------------|
|-----------------------------------------------------|
|-----------------------------------------------------|
|-----------------------------------------------------|
|-2222-2222-2222-2222---------------------------------|
|-0000-0000-0000-0000---------------------------------|
                                                (1x)
repeat riff C 1x (1:43)

riff I (1:57)
|-----------------------------------------------------|
|-----------------------------------------------------|
|-----------------------------------------------------|
|-----------------------------------------------------|
|-----------------------------------------------------|
|-0-5-4-1--0-5-4-5--0-5-4-1--0-5-4-5------------------|
                                                (3x)
riff J (2:17)
|-----------------------------------------------------|
|-----------------------------------------------------|
|-----------------------------------------------------|
|-2h3-2---2-------------------------------------------|
|-------5---5-3-5---2222-2222-2222-2222---------------|
|-------------------0000-0000-0000-0000---------------|
                                                (2x)
riff K (2:24)
|-----------------------------------------------------|
|-----------------------------------------------------|
|-----------------------------------------------------|
|-2h3-2---2-------------------------------------------|
|-------5---5-3-5---3333-3333-3333-3333-/-8888-8888---|
|-------------------1111-1111-1111-1111-/-6666-6666---|

repeat riff F 2x
repeat riff G 1x
repeat riff H 1x
repeat riff C 4x (2:42)
repeat riff I 3x

riff L (3:14)
|-----------------------------------------------------|
|-----------------------------------------------------|
|-----------------------------------------------------|
|-----------------------------------------------------|
|-----------------------------------------------------|
|-000000000000-3p1-3h4-3-1-0--------------------------|
                                                (8x)
riff M (3:27) (solo 2)
|-10--------------------------------------------------|
|----9~-9h10-3~---------------------------------------|
|-----------------------------------------------------|
|-----------------------------------------------------|
|-----------------------------------------------------|
|-----------------------------------------------------|

riff N (3:41)
|-----------------------------------------------------|
|-----------------------------------------------------|
|-----------------------------------------------------|
|-----------------------------------------------------|
|----6-5-------5-4--5/6-------------------------------|
|-3-------3-3--3-2--3/4-------------------------------|
  .       ..                                        (4x)

repeat riff J 4x (3:52)
repeat riff N 4x (4:05)
repeat riff K 1x (4:27)
repeat riff J 2x (4:30)
repeat riff K 1x (4:38)
repeat riff J 1x (till end of song)