Semigalls' Warchant outro [TAB]

Skyforger

Izpildītājs:
Skyforger
Ēnas
Mūzikas autors:
Lauris Valters
Vārdu autors:
Lauris Valters
Birkas:
tab
Nosaukums:
Semigalls' Warchant outro [TAB]
Dalīties:
Seko jaunumiem:
1st guitar
 c|-----------------------------------------|
 G|-----------------------------------------|
D#|----6---6-4--6-4-------------------------|
A#|4----------------4-(4)6-7-(7)-2-(2)-4----|
 F|-----------------------------------------|
 C|-----------------------------------------|
2nd guitar
 c|-----------------------------------------|
 G|-----------------------------------------|
D#|-----------------------------------------|
A#|4--11--11-9-11-9-4--4-6-7--7--2--2--4----|
 F|4--11--11-9-11-9-4--4-6-7--7--2--2--4----|
 C|2---9---9-7--9-7-2--2-4-5--5--0--0--2----|
Notation
   D   A   A G  A G D (D)E F (F) C (C) D