Gada īsākā nakts [TAB]

Skyforger

Izpildītājs:
Skyforger
Ēnas
Birkas:
tab
Nosaukums:
Gada īsākā nakts [TAB]
Dalīties:
Seko jaunumiem:
e|---------------------------------------------|
B|---------------------------------------------|
G|---------------3-5-3-2-5-2-5-5-3-2-----------|
D|-------------3---------------------5-3-7-4---|
A|-5-6-8-7-5-3-------------------------------5-|
E|---------------------------------------------|

e|---------------------------------|
B|---------------------------------|
G|--3-5-3-2-5-2-5-5-3-2------------|
D|-3--------------------5-3-7-5----|
A|------------------------------5--|
E|---------------------------------|

e|------------------------------------------------------------------|
B|------------------------------------------------------------------|
G|------------------------------------------------------------------|
D|---7-7-7-8-10-7-4----------7-7-8-7-5-------5-8-6------5-----------|
A|-5----------------8-7-8-10-----------8-7-5-------10-8---5-7-8-7-5-|
E|------------------------------------------------------------------|

e|---------------------------------------------|
B|---------------------------------------------|
G|---------------------------------------------|
D|-0-0---10-0-0---8-0-0---6-0-0---5-0-0----5-6-|
A|---------------------------------------------|
E|---------------------------------------------|
   . .      . .     . .     . .     . .

e|-------------------|------------------------|
B|-------------------|------------------------|
G|-77777777-66666666-|-77777777-10101010-6666-|
D|-77777777-66666666-|-77777777-10101010-6666-|
A|-55555555-44444444-|-55555555-8-8-8-8--4444-|
E|-------------------|------------------------|

e|-----------------------------|
B|-----------------------------|
G|-----------------------------|
D|-77777777-10101010-14141414--| 
A|-55555555-8-8-8-8--12121212--|
E|-----------------------------|

                           3x
e|-------------------------| |-------------------------|
B|-------------------------| |-------------------------|
G|-7xxxx-7xxxx-7xxxx-7-8-6-| |-8xxxx-8xxxx-4xxxx-4xxxx-|
D|-7xxxx-7xxxx-7xxxx-7-8-6-| |-8xxxx-8xxxx-4xxxx-4xxxx-|
A|-5xxxx-5xxxx-5xxxx-5-6-4-| |-6xxxx-6xxxx-2xxxx-2xxxx-|
E|-------------------------| |-------------------------|


e|------------------------------------|
B|------------------------------------|
G|-7~7-8-6---7~7-8-6---7~7-8-6--------|
D|-7~7-8-6---7~7-8-6---7~7-8-6--8~-4~-|
A|-5~5-6-4---5~5-6-4---5~5-6-4--8~-4~-|
E|------------------------------6~-2~-|
e|---------------------------------------------|
B|---------------------------------------------|
G|------------------------------------3------5-|
D|-4-3-1-1--4-3-1-6-4-3--4-3-1-1----3------5---|
A|--------------------------------1------3-----|
E|---------------------------------------------|

e|--------------------------------------------|
B|--------------------------------------------|
G|--------------------------------3-4-3-------|
D|-4-3-1-1--4-3-1-6-4-3--4-3-1-1--------6-4-3-|
A|--------------------------------------------|
E|--------------------------------------------|

e|---------5-----------------3-4-----------3-----------------7-5-|
B|-------5---5------5--------3-4---------3---3------3--------7-5-|
G|-----7-------7------7------5-6-------5-------5------5------9-7-|
D|---7-----------7------7----5-6-----5-----------5------5----9-7-|
A|-5----------------------5--3-4---3----------------------3--7-5-|
E|---------------------------------------------------------------|

e|-------------------------------|
B|-------------------------------|
G|-7-7--6-7--9--7-6--6--7--9--7--|
D|-7-7--6-7--9--7-6--6--7--9--7--|
A|-5-5--4-5--7--5-4--4--5--7--5--|
E|-------------------------------|