Garais dancis [TAB]

Skyforger

Izpildītājs:
Skyforger
Birkas:
tab
Nosaukums:
Garais dancis [TAB]
Dalīties:
Seko jaunumiem:
E|---------------|
B|---------------|
G|-5-5-54-54-3-3-|
D|-5-5-54-54-3-3-|
A|-3-3-32-32-3-3-|
E|---------------|

E|-----------------------------|
B|-----------------------------|
G|-----------------------------|
D|-----------------------------|
A|-2-4-5-54-54-2-0-5---5---7-5-|
E|-------------------5---5-----|

E|--------------------------|
B|--------------------------|
G|--------------------------|
D|--------------------------|
A|-5-54-54-2-0-5---5---4—5--|
E|---------------5---5------|

E|------------------------------------------------------|
B|------------------------------------------------------|
G|------------------------------------------------------|
D|------------------------------------4—-7--4h5p4-2—-0--|
A|-7-5-4—-5-4-2—-7-5-4—-9-7-5—-7-5-4--------------------|
E|------------------------------------------------------|

E|-----------------------------------------------------|
B|-----------------------------------------------------|
G|-----------------------------------------------------|
D|-2-------------2-------------2----2----2---4---0-----|
A|---2-0-2-0-2-0---2-0-2-0-2-0--222--222---2---4---222-|
E|-----------------------------------------------------|


E|------------------------------------------------|
B|------------------------------------------------|
G|------------------------------------------------|
D|-2-------------2-------------2----2----2-0------|
A|---2-0-2-0-2-0---2-0-2-0-2-0--222--222-----4—-2-|
E|------------------------------------------------|



E|---------------------------------------------------------|
B|---------------------------------------------------------|
G|---------------------------------------------------------|
D|---------------------------------------------------------|
A|-2-2-5-5-7-5-4-2-5-2-4-5-2-4—-2-2-5-5-7-5-4-2-5-2-4-2--2-|
E|---------------------------------------------------------|



E|---------------------------------------------------------|
B|---------------------------------------------------------|
G|---------------------------------------------------------|
D|-4-4-7-7-9-7-6-4-7-4-6-7-4-6—-4-4-7-7-9-7-6-4-7-4-6-4—-4-|
A|---------------------------------------------------------|
E|---------------------------------------------------------|