dls2

S.I.L.S.

Izpildītājs:
S.I.L.S.
Arturs Gruzdiņš
Nosaukums:
dls2
Dalīties:
Seko jaunumiem:
    C 2x
Eb--0|---------o-------------
Bb--1|-----o-----o---o-------
Gb--0|---o---o-----o---------
Db--2|-----------------------
Ab--3|-o---------------------
Eb--x|-----------------------

    F 2x
Eb--0|---------o------------
Bb--1|-----o-----o---o------
Gb--2|---o---o-----o--------
Db--3|----------------------
Ab--3|-o--------------------
Eb--x|----------------------

    Am 1x
Eb--0|---------o------------
Bb--1|-----o-----o---o------
Gb--2|---o---o-----o--------
Db--2|----------------------
Ab--0|-o--------------------
Eb--x|----------------------

    G 1x
Eb--0|---------o------------
Bb--1|-----o-----o---o------
Gb--0|---o---o-----o--------
Db--0|----------------------
Ab--x|-o--------------------
Eb--x|----------------------

    C 2x
Eb--0|---------o-------------
Bb--1|-----o-----o---o-------
Gb--0|---o---o-----o---------
Db--2|-----------------------
Ab--3|-o---------------------
Eb--x|-----------------------

---------------------------------------


pantiņš: visos akordi vienādi

C                         
a black vision sitting on my amplifier
F
and it’s looking at me
Am            G                 C    
yes, again I’m writing a song about me


this time I take all the words that are
inside of me
I write them all down, don’t think what they mean


a black vision sitting on my amplifier
and it’s looking at me
telling me things and what do they mean


piedziedājums: 
 
F                                  Am
wouldn’t it be easier to live without pain
F                         Am
and why I’m killing me with me
F                            Am
but I need it so just like to breath
G                                         Am                        
if you are only happy you just can’t see these things
F                             Am
but I need it so just like to breath
G                                         C                    
if you are only happy you just can’t see these things


pantiņš:

a lot of pictures are on my walls
but it’s sad to be sad if you are
one that feels so


this black vision sitting on my amplifier
and it’s looking at me
telling my things and what do they mean


beigas:  C un F