Vagīna [TAB]

PND

Izpildītājs:
PND
Birkas:
tab
Nosaukums:
Vagīna [TAB]
Dalīties:
Seko jaunumiem:
e -------------------------------------------------|
B ------------------3---------1--------------------|
G ------5----------------------------------4h5p4---| 2x
D -------------------------------------------------|
A ---3-----3---2-2-----2---0-----0-----------------|
E -------------------------------------33----------|

     C         Bm          Am          G 
e -------------------------------------------------|
B ------------------3-----------1------------------|
G -------5-4----------4--------------------4h5p4---| 2x
D -------------------------------------------------|
A ---33--------22----------00----------33----------|
E -------------------------------------------------|


Melodija :

e -------------