I love you

Ainars Mielavs

Izpildītājs:
Ainars Mielavs
Nosaukums:
I love you
Dalīties:
Seko jaunumiem:
INTRO: E E G#m B | E E G#m B | C#m7 C#m7 G#m A | E B E E   - Tas pats arī piedziedājumā 
E------------------------------
B-4-5-5----5-4-2----------------
G-----------------1-4-4--1--4---- X2 
D------------------------------
A-----------------------------
E------------------------------
E------------------------------
B-4-5-5----5-4-2------------2----2--0-0
G-----------------1-4-4--1--------------1-1-2---1 
D--------------------------------------------------2
A-----------------------------
E------------------------------
     
    E             B           E
Lai apstātos, man vajag Ķīnas mūri,
     B             C#m 
Vai vismaz stingru dūri 
   A     B     E
Uz sarkankoka galda,
   E      B         E 
Jo manas iekaisušas domas
   B          C#m
Ir otrā plāna lomas
    A     B    E 
Ne pārāk labā izrādē:
       E           G#m     B 
I love You! Do you love me too?
       E           G#m     B 
I love you! Do you love me too?
       C#m7        G#m     A 
I love you! Do you love me too?. 
        E          B       E
I love you! Do you love me too?. 

Bet, iespējams, man vajag tikai vienu, 
To žilbinoši balto sienu, 
Tiem zināmajiem vārdiem, 
Ko ieskrāpēt ar sirdsapziņas iesmu, 
Ar sirdsapziņas iesmu, 
Kā svešvaloda dziesmu: