Ej un meklē

R.A.P.

Izpildītājs:
R.A.P.
Nosaukums:
Ej un meklē
Dalīties:
Seko jaunumiem:
Skaņojums - drop D[DADGBE]

Pants
E------------------
B-------1----------
G------------2-----
D---0--------------
A------------------
D------------------


Vai nav tā ka visa par daudz
Vārdu daudz, ko nevar sacīt
Ļaužu daudz daudz, 
Kāds kādu pazīst,citu ienīst

Vai ir vērts līst burzmā
Viens otru tik un tā tur nedzird
Vai ir kāds, kurš prot uzrunāt, prot uzrunāt.

Piedz.

D5               B5               Bb5   G5
Ja tu vēlies, tad sāc ej un meklē, neapstāj. 
D5                B5              Bb5   G5 C5 
Šaubu un ēnas lai zūd kaut peklē, nepārstāj. 

Starpspēle

E----10-------8------12-----12---
B--------------------------------
G--------------------------------
D--------------------------------      X2
A--------------------------------
D--------------------------------

Pants
E------------------
B-------1----------
G------------2-----
D---0--------------
A------------------
D------------------


Cauri simtiem vienu balsi vari skaidri saklausīt
Un tu pūlies arī ieraudzīt, arī ieraudzīt.

Piedz.

D5               B5               Bb5   G5
Ja tu vēlies, tad sāc ej un meklē, neapstāj. 
D5                B5              Bb5   G5 
Šaubu un ēnas lai zūd kaut peklē, nepārstāj.
Bb5      D5               G5  
    Tava sirds deg tagad ej
         D5               Bb5
Velreiz sāc, lai suņi rej
      D5               G5  A5  Bb5 C5  D5
Tava sirds deg tagad ej.... ej un meklē

Solo
 
E---------------------
B---------------------
G--------12----10-----  X8
D---12----------------
A---------------------
D---------------------



E-------------------------------------------
B--8---10---8---10----13---10----13----10---
G-------------------------------------------
D--5---7----5----7----10----7----10-----7---    X2
A-------------------------------------------
D-------------------------------------------

Piedz.

D5               B5               Bb5   G5
Ja tu vēlies, tad sāc ej un meklē, neapstāj. 
D5                B5              Bb5   G5 
Šaubu un ēnas lai zūd kaut peklē, nepārstāj.
Bb5      D5               G5  
    Tava sirds deg tagad ej
         D5               Bb5
Velreiz sāc, lai suņi rej
      D5               G5  A5  Bb5 C5  D5
Tava sirds deg tagad ej.......... un meklē





Janosheks