Rudens (SOLO)

Fomins un Kleins

Izpildītājs:
Fomins un Kleins
Nosaukums:
Rudens (SOLO)
Dalīties:
Seko jaunumiem:
INTRO:
e|----------------------------------------------------------------------------------------------------------------|
B|--bend-------------bend--------------------------------bend--------------------------------------|
G|---------------------------------------------7----------------------------------------------------|
D|---7----5----------7-7---5-7-5--------7---5-7-----------7----5-7-5-------------------------------|
A|---8---------------8-8----------------8-----------------8-------------------------------------------|
E|----------------------------------------------------------------------------------------------------------------|

Solo beigās:
e|----------------------------------------------------------------------------------------------------------------------------------|
B|---bend(19)--------bend(19)----------bend(19)----------bend(19)-------------------------------------------------|
G|-------------------------------------------------19-----------------19-----------------------------------------------|
D|---19----17--------19----17-19- 17---19----17-19--------19---19-17--------17-19-17----------------|
A|---20--------------20----------------20-----------------20---------------------------------------------------|
E|----------------------------------------------------------------------------------------------------------------------------------|

e|-----------------------------------------------------------------------------------------------------------------------------|
B|---------------------------bend (19)--------------------------------------------------------------------------------|
G|-bend(20-----------------------------------------19-------------------------------------------------------------------|
D|----------------19--19-----19---17-------17-19-17-------------------------------------------------|
A|--20------20-17---17---------------------------------------------------------------------------------------------|
E|-----------------------------------------------------------------------------------------------------------------------------|


Pilnu solo un dziesmu GUITAR PRO 5 versijā var iegūt rakstot man [email protected]!!!
 
Oskars Kalniņš