Tā 3

Ainars Mielavs

Izpildītājs:
Ainars Mielavs
Agnese
Mūzikas autors:
Imants Kalniņš
Vārdu autors:
Ainars Mielavs
Nosaukums:
Tā 3
Dalīties:
Seko jaunumiem:
Bb                 Gm         Eb     F7    Bb
Esi man tā, lai es jūtu, cik ļoti to vajag Tev
Bb                   Gm          Eb
Tā, lai es tieku, kur labi paliek
   F7        Gm    Gm     Dm       Eb
Jo ilgāk, jo labāk tā, kā uznāk un pāriet
    Bb      F7       Bb   Gm      Dm        Eb
Tik ātri un lēni bez gala tā, lai lidot ir vieglāk,
    Dm       Gm    F         Gm
Kā elpot un dzīvot vienkārši tā.


Esi man tā, Lai es jūtu, Cik ļoti To vajag Tev
Tā, Lai es tieku, Kur labi Paliek Jo ilgāk, Jo labāk
Tā, Ka uznāk Un pāriet Tik ātri Un lēni Bez gala
Tā, lai lidot Ir vieglāk, Kā elpot Un dzīvot
Vienkārši Tā


Solo:
--------------------------------------------------------
------8-6-6-8-----------------------8-6-6-8-------------
-s7-7---------7-3-5-5-3h5s7----s7-7---------7-----5-5-3-
----------------------------------------------5-8-------
--------------------------------------------------------
--------------------------------------------------------

------6-5h6p5-----------------------
--------------6-6h8-8-6-6-8---------
-s7-7-----------------------7-5-5-7-
------------------------------------
------------------------------------
------------------------------------

------6-5h6p5-----------------------
--------------6-6h8-8-6-6-8---------
-s7-7-----------------------7-5-5-3-
------------------------------------
------------------------------------
------------------------------------ 


Esi man tā, Lai es jūtu, Cik ļoti To vajag Tev
Tā, Lai es tieku, Kur labi Paliek Jo ilgāk, Jo labāk
Tā, Ka uznāk Un pāriet Tik ātri Un lēni Bez gala
Tā, lai lidot Ir vieglāk, Kā elpot Un dzīvot
Vienkārši Tā

Esi man tā, Lai es jūtu, Cik ļoti To vajag Tev
Tā, Lai es tieku, Kur labi Paliek Jo ilgāk, Jo labāk
Tā, Ka uznāk Un pāriet Tik ātri Un lēni Bez gala
Tā, lai lidot Ir vieglāk, Kā elpot Un dzīvot
Vienkārši Tā

Esi man tā, Lai es jūtu, Cik ļoti To vajag Tev
Tā, Lai es tieku, Kur labi Paliek Jo ilgāk, Jo labāk
Tā, Ka uznāk Un pāriet Tik ātri Un lēni Bez gala
Tā, lai lidot Ir vieglāk, Kā elpot Un dzīvot
Vienkārši Tā