Uzmini Nu (solo)

H2O

Izpildītājs:
H2O
Nosaukums:
Uzmini Nu (solo)
Dalīties:
Seko jaunumiem:
E---------------------10-----------------------------------------------
B-------------8-----------10-8------------8--------------------------
G--------------------------------------------------7------------------
D--7-9-10-------10--------------5-7-9-------9------10-------------

E---------------------10----------10--------------
B-------------8-----------10-8--------10--8------
G---------------------------------------------------
D--7-9-10------10--------------------------------

E---------------------10-----------------------------------------------
B-------------8-----------10-8------------8--------------------------
G--------------------------------------------------7------------------
D--7-9-10-------10--------------5-7-9-------9------10-------------

E---------------------10----------
B-------------8-----------10-8---
G---------------------------------
D--7-9-10-------10--------------