Lauztās Lūpas (Solo) [TAB]

Edza Niknais

Izpildītājs:
Edza Niknais
Birkas:
tab
Nosaukums:
Lauztās Lūpas (Solo) [TAB]
Dalīties:
Seko jaunumiem:
Solo
    H   E  E S S     E  E  H     E  E  E     H        E  E  S S E   
E||---------------|-----------------------|------------------------|
B||---------------|-----------------------|------------------------|
G||---------------|-----------------------|------------------------|
D||-----2--2------|--------------------2--|--3--------L--3--5-3-2--|
A||----------5-3--|--5--3--------3--5-----|------------------------|
E||---------------|-----------------------|------------------------|


  E  Q    E  E  E  E  E     H        H                                             
-------------------------|--------------------|-----------|
-------------------------|--------------------|-----------|
--2----------2-----------|--------------------|-----------|
-----5----L-----5--2-----|--------------------|-----------|
----------------------5--|--3-----------------|-----------|
-------------------------|--------------------|-----------|

Duration Legend
---------------
H - half
Q - quarter
E - 8th
S - 16th

Tablature Legend
----------------
L - tied note