Tu Saviļņoji Mani [TAB]

Ainars Mielavs

Izpildītājs:
Ainars Mielavs
Birkas:
tab
Nosaukums:
Tu Saviļņoji Mani [TAB]
Dalīties:
Seko jaunumiem:
ievads
|-------2--------0--------|--2----------3-------5--|
|----------3--------3-----|-------3----------3-----|
|--4----------4--------4--|--4-------4--4----------|
|-------------------------|------------------------|
|-------------------------|------------------------|
|-------------------------|------------------------|

--------2--------0--------|--2--------0--2p-0-------|
--3--------3--------3-----|-------------------3-----|
-----4--------4--------4--|----------------------4--|
--------------------------|-------------------------|
--------------------------|-------------------------|
--------------------------|-------------------------|
3x

 
|-------2--------0--------|--2----------3-------5--|
|----------3--------3-----|-------3----------3-----|
|--4----------4--------4--|--4-------4--4----------|
|-------------------------|------------------------|
|-------------------------|------------------------|
|-------------------------|------------------------|

                   Tu savilnoji
--------2--------0--------|--2----------------------|
--3--------3--------3-----|-------------------------|
-----4--------4--------4--|-------------------------|
--------------------------|-------------------------|
--------------------------|-------------------------|
--------------------------|-------------------------|

pants

  mani
|-------------------------|-------------------------|
|-------3--------5--------|--2--------2--------2----|
|----------3--------3-----|-----3--------3--------3-|
|--4----------4--------4--|--------4--------4-------|
|-------------------------|-------------------------|
|-------------------------|-------------------------|

neko pat nedarot
--------2--------0--------|--2--------0--2p-0-------|
--3--------3--------3-----|-------------------3-----|
-----4--------4--------4--|----------------------4--|
--------------------------|-------------------------|
--------------------------|-------------------------|
--------------------------|-------------------------|
           
Ka esi ta kas esi
bez visiem iznemot
Tu savilnoji mani
ar istu klusumu
Ka negaidi par ilgu

Un neslep mulsumu                   Tu savilnoji mani
--------2--------0--------|--2--------0--2p-0-------|
--3--------3--------3-----|-------------------3-----|
-----4--------4--------4--|----------------------4--|
--------------------------|-------------------------|
--------------------------|-------------------------|
--------------------------|-------------------------|

piedz.

  ar vilni devito
|-------2--------0--------|--2----------3-------5--|
|----------3--------3-----|-------3----------3-----|
|--4----------4--------4--|--4-------4--4----------|
|-------------------------|------------------------|
|-------------------------|------------------------|
|-------------------------|------------------------|

--------2--------0--------|--2--------0--2p-0-------|
--3--------3--------3-----|-------------------3-----|
-----4--------4--------4--|----------------------4--|
--------------------------|-------------------------|
--------------------------|-------------------------|
--------------------------|-------------------------|

|-------------------------|-------------------------|
|-------3--------5--------|--2--------2--------2----|
|----------3--------3-----|-----3--------3--------3-|
|--4----------4--------4--|--------4--------4-------|
|-------------------------|-------------------------|
|-------------------------|-------------------------|

--------2--------0--------|--2--------0--2p-0-------|
--3--------3--------3-----|-------------------3-----|
-----4--------4--------4--|----------------------4--|
--------------------------|-------------------------|
--------------------------|-------------------------|
--------------------------|-------------------------|