Kad Tu Nāc    

Re:public

Izpildītājs:
Re:public
Nosaukums:
Kad Tu Nāc    
Dalīties:
Seko jaunumiem:
E	X76454		C#m	046654
G#7	464544		G	355433
A	577655

                E
Vienmēr, kad tu nāc,
               G#7   
Es acis atvērt kautrējos
          A           A#>G          
Jo esi tu brīnums mans
   G      E
Un laikam arī sods.
Bet, kad tu projām ej,
Nav jēgas tavas pēdas dzīt;
Jo atmiņas ir debesis,
Kas lejā nenokrīt

Es vienmēr gribu bēgt,
Tas nerisina it neko,
Tas visu tikai sabojā,
Un visu tikai pasvītro.
Ka nemirs it neviens,
Un nepametīs it nekad;
Es tikai čukstus māku to -
Pateikt svarīgāko.

Pāreja: G  A

E  G#7    C#m    A                    E
Na-av man vairs (glāstu, kuros atgriezties)
E   G#7       C#m     A          E
Vie-ienīgais (atmiņās drīkst kavēties)
E  G#7    C#m    A                     E
Na-av man vairs (ar citiem jēgas sacensties)
E   G#7 C#m
Vie-ienīgais

Man laikā pamosties,
Un iebrist baltā kupenā,
Un kailam vējā sadurties,
Lai sāp un nav jādomā.
Varbūt nesaprasts ,
Varbūt nedaudz nekaunīgs,
Es gribu tās atmiņas,
Kas lejā nenokrīt.

 Na-av man vairs (domu, kurās sapīties)
Vienīgais (laikam mainoties)
Na-av man vairs (ar sevi jēga sacensties)

Vie-ienīgais

Solo:

|-------------------|-------------------------------|-------------------------------------|
|--------5-(7)-/8b--|--------5-(7)-/8b-8b-(7)-5-----|-----5--------5--------5-------------|
|--/4-(6)-----------|--/4-(6)-------------------5---|-/(5)-5-6-/(6)-6-7-/(7)-7-/9--6-/9--|
|-------------------|-------------------------------|-------------------------------------|
|-------------------|-------------------------------|-------------------------------------|
|-------------------|-------------------------------|-------------------------------------|

|--------------------------|-------------------------------|----12--------12-----15b-15b-12-10-12-10...|
|--------5-(7)-/8b-/8b-/8b-|--------5-(7)-/8b-8b-(7)-5-----|-/12-12-13-/13-13-14b—14----------------...|
|--/4-(6)------------------|--/4-(6)-------------------5---|-------------------------------------------|
|--------------------------|-------------------------------|-------------------------------------------|
|--------------------------|-------------------------------|-------------------------------------------|
|--------------------------|-------------------------------|-------------------------------------------|


Na-av man vairs (z?mes, kuras j?tulko)
Vien?gais (kurš kuru atbr?vo?)
Na-av man vairs (?nas, kuras pievieno)
Vie-ien?gais...