Pāri Visam [TAB]

Ģenerālplāns

Izpildītājs:
Ģenerālplāns
Birkas:
tab
Nosaukums:
Pāri Visam [TAB]
Dalīties:
Seko jaunumiem:
     E  E  E  E  E  E  E  E     E  E  E  E  E  E  E  E   
E||--------------------------|--------------------------|
B||--------------5-----------|--------------0-----------|
G||--------6--------6--------|--------2--------2--------|
D||-----6-----6--------6-----|-----2-----2--------2-----|
A||--4--------------------4--|--0--------------------0--|
E||--------------------------|--------------------------|


  E  E  E  E  E  E  E  E     E  E  E  E  E  E  E  E   
--------------------------|--------------------------|
--------------------------|--------------4-----------|
--------------1-----------|--------4--------4--------|
--------2--------2--------|-----4-----4--------4-----|
-----2-----2--------2-----|--2--------------------2--|
--0--------------------0--|--------------------------|


  E  E  E  E  E  E  E  E     E  E  E  E  E  E  E  E   
--------------------------|--------------------------|
--------------------------|--------------------------|
--------------------------|--------------------------|
--------------------------|--------------------------|
--4--4--4--4--4--4--4--4--|--0--0--0--0--0--0--0--0--|
--------------------------|--------------------------|


  E  E  E  E  E  E  E  E     E  E  E  E  E  E  E  E          
--------------------------|--------------------------|-----||
--------------------------|--------------------------|-----||
--------------------------|--------------------------|-----||
--------------------------|--------------------------|-----||
--------------------------|--2--2--2--2--2--2--2--2--|-----||
--0--0--0--0--0--0--0--0--|--------------------------|-----||

Piedz Bar A, C, G, D
Bridge Bar C#m, A7, E, B