Ziļi Malni Padebeši [TAB]

Green Novice

Izpildītājs:
Green Novice
Birkas:
tab
Nosaukums:
Ziļi Malni Padebeši [TAB]
Dalīties:
Seko jaunumiem:
e|-----------------------|
B|---14--14-14p12---13---|
G|-13--13---------14--14-| x3
D|-----------------------|
A|-----------------------|
E|-----------------------|

e|-----------------------|
B|-12-13--15-15-13-12----|
G|-12--------------------|
D|-----------------------|
A|-----------------------|
E|-----------------------|


e|----------------------5-5-3-5---------|
B|-3-3-1-5--5-6-5-1-3--3-------5-6-5-3-5|
G|--------------------------------------|  x2
D|--------------------------------------|
A|--------------------------------------|
E|--------------------------------------|


Forumā ievietoja buucHa