Sprīdītis

PND

Izpildītājs:
PND
Arturs Gruzdiņš
Nosaukums:
Sprīdītis
Dalīties:
Seko jaunumiem:
Akordi:

C5 - |x355xx|

A5 - |577xxx|

F5 - |133xxx|

G5 - |355xxx|



Intro:

C Am

e|---------0-------------0------------0------

B|------1---1---------1---1--------1---1----

G|----0-------0-----0-------0----2-------2--

D|--------------------------------------------

A|-3-------------3-------------0--------------

E|---------------------------------------------

Am F G

-------0------------1----------------3------|

-----1---1--------1---1-----------0---0---|

---2-------2----2-------2-------0-------0-|

--------------3-------------3---------------|

-0-------------------------------------------|

-------------------------------3-------------|



Melodija:



e|-------------------------|

B|--------3---0---5---6-5|

G|-5-4-5---5---5---------|



e|--------------------------------------------|

B|---8-8-5p6p5--5-------5--6-6-6p5p6---|

G|-5-----------------5--7-------------------|



e|-------------------------------------|

B|--------3---0---5-5--5-6~-5------|

G|-5-4-5---5---5---------------5-5--|



e|---------------------------|

B|---------------------------|

G|--5-10~-9--7p8p7--5-5-|



Verse: C5 A5 F5 G5 C5



[C5]Virs galvas mūžīgs piena[A5] ceļš,

[F5]Un mūžīgs [G5]ceļš starp [C5]kājām,

Kas ved uz zemi laimīgo[A5],

Bet [F5]nelaimi[G5] uz[C5] mājām...