Kad Ūsiņš Jāj [TAB]

Skyforger

Izpildītājs:
Skyforger
Arturs Gruzdiņš
Refleksija
Mūzikas autors:
Refleksija
Vārdu autors:
Arturs Gruzdiņš
Birkas:
tab
Nosaukums:
Kad Ūsiņš Jāj [TAB]
Dalīties:
Seko jaunumiem:
Standard E Tuning

riff A
|-----------------------------------------------------|
|-----------------------------------------------------|
|---------------------------------------5/7/8\7/8-5---|
|-5/7-7-7-7---5/7/8\7/8-5---5/7-7-7-7---3/5/6\5/6-3---|
|-3/5-5-5-5---3/5/6\5/6-3---3/5-5-5-5-----------------|
|-----------------------------------------------------|
                                                (1x)

riff B (0:12)
|-----------------------------------------------------|
|-----------------------------------------------------|
|---------------------------------------5/7/8\7-------|
|-5/7-7-7-7---5/7/8\7/8-5---5/7-7-7-7---3/5/6\5-8-5---|
|-3/5-5-5-5---3/5/6\5/6-3---3/5-5-5-5-----------6-3---|
|-----------------------------------------------------|
                                                (1x)
riff C (0:17)
|-----------------------------------------------------|
|-----------------------------------------------------|
|-----------------------------------------------------|
|-5/7--777777--5/7/8\7/8-5----------------------------|
|-3/5--555555--3/5/6\5/6-3----------------------------|
|-----------------------------------------------------|
       ......

riff D
|-----------------------------------------------------|
|-----------------------------------------------------|
|--------------5/7/8\7/8-5----------------------------|
|-5/7--777777--3/5/6\5/6-3----------------------------|
|-3/5--555555-----------------------------------------|
|-----------------------------------------------------|
       ......

repeat riff C 1x (0:25)

riff E
|-----------------------------------------------------|
|-----------------------------------------------------|
|--------------5/7/8\7--------------------------------|
|-5/7--777777--3/5/6\5-8-5----------------------------|
|-3/5--555555----------6-3----------------------------|
|-----------------------------------------------------|
       ......

riff F (0:33)
|-----------------------------------------------------|
|-----------------------------------------------------|
|-----------------------------------------------------|
|-----------------------------------------------------|
|-5555-5--7-8-7-----5555-5--7-8-----------------------|
|-3333-3--5-6-5-----3333-3--5-6-----------------------|
  .... .            .... .

riff G
|-----------------------------------------------------|
|-----------------------------------------------------|
|-----------------------------------------------------|
|---------------------------7-8-7---------------------|
|-5555-5--7-8-7-----5-7-8-7-5-6-5-8-------------------|
|-3333-3--5-6-5-----3-5-6-5-------6-------------------|
  .... .

repeat riff F 1x (0:41)
repeat riff G 1x

repeat riff C 1x
repeat riff D 1x
repeat riff C 1x
repeat riff E 1x

riff H (1:05)
|-----------------------------------------------------|
|-----------------------------------------------------|
|-8--7-------------8--7-------------------------------|
|-6--5---3-5-6-3---6--5-------------------------------|
|-----------------------------------------------------|
|-----------------------------------------------------|

|-----------------------------------------------------|
|-----------------------------------------------------|
|-8--7-------------8--7-------------------------------|
|-6--5---3-5-6-3---6--5--8--7-------------------------|
|------------------------6--5-------------------------|
|-----------------------------------------------------|

riff I (1:20)
|-----------------------------------------------------|
|-----------------------------------------------------|
|-----------------------------------------------------|
|-----------------------------------------------------|
|-555-5--5-555-5-5--555-55-3/5-5----------------------|
|-333-3--3-333-3-3--333-33-1/3-3----------------------|
 p.m......................                        (2x)

riff J (1:28)
|-----------------------------------------------------|
|-----------------------------------------------------|
|-----------------------------------------------------|
|-----------------------------------------------------|
|-555-5--7-777--555-5--55-3/5-5-----------------------|
|-333-3--5-555--333-3--33-1/3-3-----------------------|

riff K
|-----------------------------------------------------|
|-----------------------------------------------------|
|-----------------------------------------------------|
|-----------------------------------------------------|
|-555-5--777-7--333-555-3/5-5-------------------------|
|-333-3--555-5--111-333-1/3-3-------------------------|

repeat riff C 1x
repeat riff D 1x
repeat riff C 1x
repeat riff E 1x
repeat riff H 1x
repeat riff I 2x (2:08)
repeat riff J 1x
repeat riff K 1x
repeat riff F 1x (2:25)
repeat riff G 1x

riff L (2:40)
|-----5-----------------------------------------------|
|-------8-6\3-----------------------------------------|
|-8----------------8--5-------------------------------|
|-6----------------6----6-5-3-------------------------|
|-----------------------------------------------------|
|-----------------------------------------------------|
                                                (2x)
riff M (flute) (2:56)
|----3----------------3-------------------------------|
|-3~---5--6-3-5----3~---5--6-3-5----------------------|
|-----------------------------------------------------|
|-----------------------------------------------------|
|-----------------------------------------------------|
|-----------------------------------------------------|

|-----------------------------------------------------|
|-6-3--5-6~-5--6-3--5-6-6-5---------------------------|
|-----------------------------------------------------|
|-----------------------------------------------------|
|-----------------------------------------------------|
|-----------------------------------------------------|

repeat riff M 1x

riff N + M (1x) (3:12)
|-----------------------------------------------------|
|-----------------------------------------------------|
|-----------------------------------------------------|
|-----------------------------------------------------|
|-55--3/5-5--3~-/5-5---55555555-3---------------------|
|-33--1/3-3--1--/3-3---33333333-1---------------------|
  ..    . .      . .   ........

riff O (3:21)
|-----3--------------3----------------------------------------|
|-3-3---5-6-3-5--3-3---5-6-3-5--6-3-3-5-6-6-5-5-6-3-3-5-6-6-5-|
|-------------------------------------------------------------|
|-------------------------------------------------------------|
|-------------------------------------------------------------|
|-------------------------------------------------------------|
                                        (2x)
repeat riff A 1x (3:36)
repeat riff B 1x
repeat riff A 1x (3:55)
repeat riff B 1x

riff P (ending riff)
|-----------------------------------------------------|
|-----------------------------------------------------|
|-----------------------------------------------------|
|-----------------------------------------------------|
|-3/5~------------------------------------------------|
|-1/3-------------------------------------------------|