Esot Vienatnē [BTAB]

R.A.P.

Izpildītājs:
R.A.P.
Birkas:
tab
Nosaukums:
Esot Vienatnē [BTAB]
Dalīties:
Seko jaunumiem:
G|----------------------------------------
D|----------------------2-2-2-2---5-5-5-5-
A|-2-2-2-2-2--5-5-5-5---------------------
E|----------------------------------------

Verse:

G|------------------------------------------
D|----------------------------------------0-
A|-2-2-2-2---0-0-0-0----slide------12-10----   x2
E|------------------------------------------

G|----------------------------------------
D|----------------------------------------
A|--------------5-5-5-4-4-2-2-------------     x2
E|----3-3-3-2----------------------------- 


Chorus:

G|----------------------------------------
D|----------------------2-2-2-2---5-5-5-5-
A|-2-2-2-2-2--5-5-5-5---------------------   x4
E|----------------------------------------


Bridge:

G|----------------------------------------
D|----------------------------------------
A|--2-2-2-2-2-2-2-2-----------------------   x4
E|------------------0-0-0-0-3-3-3-3-------

Chorus...  x4


Tab by Marcho

Vārdi:

Esot vienatnē, raugos tālienē
Nav jāvaicā kāpēc, nav jāsaprot-
Ikkatram tas kādreiz ir jāizjūt

Saulei rietot debesīs,
kad krāsas sabiezē,
jādomā, kā pārvarēt, 
ka kopā neesam vairs mēs.
Atmiņā tas atsauc to, 
ko nevar dzēst
ko nevar aizmirst
un kas jāzaudē.
Atceroties sejā tavā 
sakām bezgalīgo "jā", 
nedomājot ļāvos visam
tam, kas tev bij padomā
tagad acis atverot,
es jūtos tā,
kā nenovēlu tev, 
pat neraugoties ne uz ko.

Sākot noticēt, gribam to vai nē,
ir jāprot neskatīties pagātnē,
neskaroties klāt, viss tad var būt savādāk -
lai paliek, citādāk var nesanākt.
Ir katram dots, tas var būt sūtīts sods,
un tik daudz spēka lai to gāztu nost,
nav jāzīmē, nav citiem jāspītē - 
it jābūt tikai jābūt pašam sev.

Labāk nedomāt, un neļauties tad sāpēm,
labāk nedomāt, un neļauties tad sāpēm.


Sākot noticēt, gribam to vai nē,
ir jāprot neskatīties pagātnē,
neskaroties klāt,viss tad var būt savādāk -
lai paliek, citādāk var nesanākt.
Ir katram dots, tas var būt sūtīts sods,
un tik daudz spēka lai to gāztu nost,
nav jāzīmē, nav citiem jāspītē - 
it jābūt tikai jābūt pašam sev.